ISO-10303-21;
HEADER;
FILE_DESCRIPTION (( 'STEP AP203' ),
    '1' );
FILE_NAME ('Q-QZWP-R4-25.4-980-M.STEP',
    '2020-12-23T01:28:40',
    ( '' ),
    ( '' ),
    'SwSTEP 2.0',
    'SolidWorks 2020',
    '' );
FILE_SCHEMA (( 'CONFIG_CONTROL_DESIGN' ));
ENDSEC;

DATA;
#1 = ORIENTED_EDGE ( 'NONE', *, *, #84, .T. ) ;
#2 = DIRECTION ( 'NONE',  ( 0.000000000000000000, 0.000000000000000000, 1.000000000000000000 ) ) ;
#3 = CARTESIAN_POINT ( 'NONE',  ( 3.000000000000000000, 0.000000000000000000, 15.00000000000000000 ) ) ;
#4 = APPROVAL_PERSON_ORGANIZATION ( #18, #11, #5 ) ;
#5 = APPROVAL_ROLE ( '' ) ;
#6 = AXIS2_PLACEMENT_3D ( 'NONE', #39, #100, #42 ) ;
#7 = EDGE_CURVE ( 'NONE', #119, #32, #40, .T. ) ;
#8 = COORDINATED_UNIVERSAL_TIME_OFFSET ( 8, 0, .AHEAD. ) ;
#9 = CALENDAR_DATE ( 2020, 23, 12 ) ;
#10 = APPROVAL_ROLE ( '' ) ;
#11 = APPROVAL ( #78, 'UNSPECIFIED' ) ;
#12 = LOCAL_TIME ( 9, 28, 40.00000000000000000, #8 ) ;
#13 = ORIENTED_EDGE ( 'NONE', *, *, #84, .F. ) ;
#14 = ORIENTED_EDGE ( 'NONE', *, *, #7, .T. ) ;
#15 = LINE ( 'NONE', #73, #26 ) ;
#16 = DIRECTION ( 'NONE',  ( 0.000000000000000000, 0.000000000000000000, 1.000000000000000000 ) ) ;
#17 = DIRECTION ( 'NONE',  ( -0.000000000000000000, 0.000000000000000000, 1.000000000000000000 ) ) ;
#18 = PERSON_AND_ORGANIZATION ( #68, #101 ) ;
#19 = LOCAL_TIME ( 9, 28, 40.00000000000000000, #153 ) ;
#20 = APPROVAL_STATUS ( 'not_yet_approved' ) ;
#21 = PERSON_AND_ORGANIZATION_ROLE ( 'design_owner' ) ;
#22 = ORIENTED_EDGE ( 'NONE', *, *, #70, .F. ) ;
#23 = LOCAL_TIME ( 9, 28, 40.00000000000000000, #80 ) ;
#24 = VERTEX_POINT ( 'NONE', #3 ) ;
#25 = EDGE_LOOP ( 'NONE', ( #88, #98, #118, #22 ) ) ;
#26 = VECTOR ( 'NONE', #149, 1000.000000000000000 ) ;
#27 = CARTESIAN_POINT ( 'NONE',  ( -3.000000000000000000, 0.000000000000000000, 0.000000000000000000 ) ) ;
#28 = FACE_OUTER_BOUND ( 'NONE', #74, .T. ) ;
#29 = CC_DESIGN_DATE_AND_TIME_ASSIGNMENT ( #169, #36, ( #110 ) ) ;
#30 = DIRECTION ( 'NONE',  ( 1.000000000000000000, 0.000000000000000000, 0.000000000000000000 ) ) ;
#31 = CARTESIAN_POINT ( 'NONE',  ( 3.000000000000000888, 12.69999999999999929, 0.000000000000000000 ) ) ;
#32 = VERTEX_POINT ( 'NONE', #59 ) ;
#33 = ADVANCED_BREP_SHAPE_REPRESENTATION ( 'Q-QZWP-R4-25.4-980-M', ( #134, #69 ), #112 ) ;
#34 =( NAMED_UNIT ( * ) SI_UNIT ( $, .STERADIAN. ) SOLID_ANGLE_UNIT ( ) );
#35 = CC_DESIGN_APPROVAL ( #108, ( #110 ) ) ;
#36 = DATE_TIME_ROLE ( 'classification_date' ) ;
#37 = CLOSED_SHELL ( 'NONE', ( #120, #92, #54, #87 ) ) ;
#38 = CARTESIAN_POINT ( 'NONE',  ( -3.000000000000000000, 0.000000000000000000, 0.000000000000000000 ) ) ;
#39 = CARTESIAN_POINT ( 'NONE',  ( -1.614212418857619014, 0.000000000000000000, 0.000000000000000000 ) ) ;
#40 = CIRCLE ( 'NONE', #141, 15.00000000000000000 ) ;
#41 = CARTESIAN_POINT ( 'NONE',  ( 3.000000000000000000, 1.836970198721029589E-15, -15.00000000000000000 ) ) ;
#42 = DIRECTION ( 'NONE',  ( 0.000000000000000000, 0.000000000000000000, 1.000000000000000000 ) ) ;
#43 = DIRECTION ( 'NONE',  ( -1.000000000000000000, -0.000000000000000000, -0.000000000000000000 ) ) ;
#44 = APPLICATION_CONTEXT ( 'configuration controlled 3d designs of mechanical parts and assemblies' ) ;
#45 = CALENDAR_DATE ( 2020, 23, 12 ) ;
#46 = DATE_AND_TIME ( #96, #23 ) ;
#47 = AXIS2_PLACEMENT_3D ( 'NONE', #116, #164, #103 ) ;
#48 = PERSON_AND_ORGANIZATION ( #68, #101 ) ;
#49 = PERSON_AND_ORGANIZATION_ROLE ( 'classification_officer' ) ;
#50 = PERSON_AND_ORGANIZATION_ROLE ( 'creator' ) ;
#51 = CIRCLE ( 'NONE', #85, 15.00000000000000000 ) ;
#52 = CC_DESIGN_DATE_AND_TIME_ASSIGNMENT ( #61, #157, ( #64 ) ) ;
#53 = AXIS2_PLACEMENT_3D ( 'NONE', #167, #43, #16 ) ;
#54 = ADVANCED_FACE ( 'NONE', ( #163 ), #148, .T. ) ;
#55 =( LENGTH_UNIT ( ) NAMED_UNIT ( * ) SI_UNIT ( .MILLI., .METRE. ) );
#56 = UNCERTAINTY_MEASURE_WITH_UNIT (LENGTH_MEASURE( 1.000000000000000082E-05 ), #55, 'distance_accuracy_value', 'NONE');
#57 = PLANE ( 'NONE',  #97 ) ;
#58 = FACE_OUTER_BOUND ( 'NONE', #160, .T. ) ;
#59 = CARTESIAN_POINT ( 'NONE',  ( -3.000000000000000000, 1.836970198721029589E-15, -15.00000000000000000 ) ) ;
#60 = COORDINATED_UNIVERSAL_TIME_OFFSET ( 8, 0, .AHEAD. ) ;
#61 = DATE_AND_TIME ( #109, #19 ) ;
#62 = PRODUCT ( 'Q-QZWP-R4-25.4-980-M', 'Q-QZWP-R4-25.4-980-M', '', ( #154 ) ) ;
#63 = SECURITY_CLASSIFICATION_LEVEL ( 'unclassified' ) ;
#64 = PRODUCT_DEFINITION ( 'UNKNOWN', '', #117, #123 ) ;
#65 = CIRCLE ( 'NONE', #47, 15.00000000000000000 ) ;
#66 = PERSON_AND_ORGANIZATION ( #68, #101 ) ;
#67 = APPROVAL_ROLE ( '' ) ;
#68 = PERSON ( 'UNSPECIFIED', 'UNSPECIFIED', 'UNSPECIFIED', ('UNSPECIFIED'), ('UNSPECIFIED'), ('UNSPECIFIED') ) ;
#69 = AXIS2_PLACEMENT_3D ( 'NONE', #133, #121, #170 ) ;
#70 = EDGE_CURVE ( 'NONE', #32, #119, #136, .T. ) ;
#71 = PRODUCT_RELATED_PRODUCT_CATEGORY ( 'detail', '', ( #62 ) ) ;
#72 = DIRECTION ( 'NONE',  ( -1.000000000000000000, -0.000000000000000000, -0.000000000000000000 ) ) ;
#73 = CARTESIAN_POINT ( 'NONE',  ( -1.614212418857619014, 0.000000000000000000, 15.00000000000000000 ) ) ;
#74 = EDGE_LOOP ( 'NONE', ( #13, #124 ) ) ;
#75 = CARTESIAN_POINT ( 'NONE',  ( -1.614212418857619014, 1.836970198721029589E-15, -15.00000000000000000 ) ) ;
#76 = APPLICATION_CONTEXT ( 'configuration controlled 3d designs of mechanical parts and assemblies' ) ;
#77 = CC_DESIGN_APPROVAL ( #165, ( #117 ) ) ;
#78 = APPROVAL_STATUS ( 'not_yet_approved' ) ;
#79 = VERTEX_POINT ( 'NONE', #41 ) ;
#80 = COORDINATED_UNIVERSAL_TIME_OFFSET ( 8, 0, .AHEAD. ) ;
#81 = APPROVAL_DATE_TIME ( #90, #165 ) ;
#82 = AXIS2_PLACEMENT_3D ( 'NONE', #31, #161, #17 ) ;
#83 = PERSON_AND_ORGANIZATION ( #68, #101 ) ;
#84 = EDGE_CURVE ( 'NONE', #24, #79, #51, .T. ) ;
#85 = AXIS2_PLACEMENT_3D ( 'NONE', #146, #72, #102 ) ;
#86 = DIRECTION ( 'NONE',  ( -1.000000000000000000, -0.000000000000000000, -0.000000000000000000 ) ) ;
#87 = ADVANCED_FACE ( 'NONE', ( #137 ), #57, .F. ) ;
#88 = ORIENTED_EDGE ( 'NONE', *, *, #159, .F. ) ;
#89 = CARTESIAN_POINT ( 'NONE',  ( -3.000000000000000000, 0.000000000000000000, 15.00000000000000000 ) ) ;
#90 = DATE_AND_TIME ( #111, #91 ) ;
#91 = LOCAL_TIME ( 9, 28, 40.00000000000000000, #94 ) ;
#92 = ADVANCED_FACE ( 'NONE', ( #28 ), #138, .F. ) ;
#93 = SHAPE_DEFINITION_REPRESENTATION ( #172, #33 ) ;
#94 = COORDINATED_UNIVERSAL_TIME_OFFSET ( 8, 0, .AHEAD. ) ;
#95 = PERSON_AND_ORGANIZATION ( #68, #101 ) ;
#96 = CALENDAR_DATE ( 2020, 23, 12 ) ;
#97 = AXIS2_PLACEMENT_3D ( 'NONE', #115, #30, #128 ) ;
#98 = ORIENTED_EDGE ( 'NONE', *, *, #126, .T. ) ;
#99 = DIRECTION ( 'NONE',  ( -1.000000000000000000, -0.000000000000000000, -0.000000000000000000 ) ) ;
#100 = DIRECTION ( 'NONE',  ( -1.000000000000000000, -0.000000000000000000, -0.000000000000000000 ) ) ;
#101 = ORGANIZATION ( 'UNSPECIFIED', 'UNSPECIFIED', '' ) ;
#102 = DIRECTION ( 'NONE',  ( 0.000000000000000000, 0.000000000000000000, 1.000000000000000000 ) ) ;
#103 = DIRECTION ( 'NONE',  ( 0.000000000000000000, 0.000000000000000000, 1.000000000000000000 ) ) ;
#104 = AXIS2_PLACEMENT_3D ( 'NONE', #38, #99, #2 ) ;
#105 = EDGE_CURVE ( 'NONE', #24, #119, #15, .T. ) ;
#106 = DATE_AND_TIME ( #45, #144 ) ;
#107 = APPLICATION_PROTOCOL_DEFINITION ( 'international standard', 'config_control_design', 1994, #44 ) ;
#108 = APPROVAL ( #122, 'UNSPECIFIED' ) ;
#109 = CALENDAR_DATE ( 2020, 23, 12 ) ;
#110 = SECURITY_CLASSIFICATION ( '', '', #63 ) ;
#111 = CALENDAR_DATE ( 2020, 23, 12 ) ;
#112 =( GEOMETRIC_REPRESENTATION_CONTEXT ( 3 ) GLOBAL_UNCERTAINTY_ASSIGNED_CONTEXT ( ( #56 ) ) GLOBAL_UNIT_ASSIGNED_CONTEXT ( ( #55, #113, #34 ) ) REPRESENTATION_CONTEXT ( 'NONE', 'WORKASPACE' ) );
#113 =( NAMED_UNIT ( * ) PLANE_ANGLE_UNIT ( ) SI_UNIT ( $, .RADIAN. ) );
#114 = ORIENTED_EDGE ( 'NONE', *, *, #105, .F. ) ;
#115 = CARTESIAN_POINT ( 'NONE',  ( -3.000000000000000888, 12.69999999999999929, 0.000000000000000000 ) ) ;
#116 = CARTESIAN_POINT ( 'NONE',  ( 3.000000000000000000, 0.000000000000000000, 0.000000000000000000 ) ) ;
#117 = PRODUCT_DEFINITION_FORMATION_WITH_SPECIFIED_SOURCE ( 'ANY', '', #62, .NOT_KNOWN. ) ;
#118 = ORIENTED_EDGE ( 'NONE', *, *, #105, .T. ) ;
#119 = VERTEX_POINT ( 'NONE', #89 ) ;
#120 = ADVANCED_FACE ( 'NONE', ( #58 ), #129, .T. ) ;
#121 = DIRECTION ( 'NONE',  ( 0.000000000000000000, 0.000000000000000000, 1.000000000000000000 ) ) ;
#122 = APPROVAL_STATUS ( 'not_yet_approved' ) ;
#123 = DESIGN_CONTEXT ( 'detailed design', #76, 'design' ) ;
#124 = ORIENTED_EDGE ( 'NONE', *, *, #126, .F. ) ;
#125 = DIRECTION ( 'NONE',  ( -1.000000000000000000, -0.000000000000000000, -0.000000000000000000 ) ) ;
#126 = EDGE_CURVE ( 'NONE', #79, #24, #65, .T. ) ;
#127 = ORIENTED_EDGE ( 'NONE', *, *, #159, .T. ) ;
#128 = DIRECTION ( 'NONE',  ( 0.000000000000000000, 0.000000000000000000, -1.000000000000000000 ) ) ;
#129 = CYLINDRICAL_SURFACE ( 'NONE', #6, 15.00000000000000000 ) ;
#130 = CC_DESIGN_SECURITY_CLASSIFICATION ( #110, ( #117 ) ) ;
#131 = ORIENTED_EDGE ( 'NONE', *, *, #7, .F. ) ;
#132 = PERSON_AND_ORGANIZATION ( #68, #101 ) ;
#133 = CARTESIAN_POINT ( 'NONE',  ( 0.000000000000000000, 0.000000000000000000, 0.000000000000000000 ) ) ;
#134 = MANIFOLD_SOLID_BREP ( 'Ðý×', #37 ) ;
#135 = CC_DESIGN_PERSON_AND_ORGANIZATION_ASSIGNMENT ( #143, #49, ( #110 ) ) ;
#136 = CIRCLE ( 'NONE', #104, 15.00000000000000000 ) ;
#137 = FACE_OUTER_BOUND ( 'NONE', #168, .T. ) ;
#138 = PLANE ( 'NONE',  #82 ) ;
#139 = DIRECTION ( 'NONE',  ( 0.000000000000000000, 0.000000000000000000, 1.000000000000000000 ) ) ;
#140 = LINE ( 'NONE', #75, #147 ) ;
#141 = AXIS2_PLACEMENT_3D ( 'NONE', #27, #86, #139 ) ;
#142 = APPLICATION_PROTOCOL_DEFINITION ( 'international standard', 'config_control_design', 1994, #76 ) ;
#143 = PERSON_AND_ORGANIZATION ( #68, #101 ) ;
#144 = LOCAL_TIME ( 9, 28, 40.00000000000000000, #60 ) ;
#145 = CC_DESIGN_PERSON_AND_ORGANIZATION_ASSIGNMENT ( #95, #175, ( #64 ) ) ;
#146 = CARTESIAN_POINT ( 'NONE',  ( 3.000000000000000000, 0.000000000000000000, 0.000000000000000000 ) ) ;
#147 = VECTOR ( 'NONE', #125, 1000.000000000000000 ) ;
#148 = CYLINDRICAL_SURFACE ( 'NONE', #53, 15.00000000000000000 ) ;
#149 = DIRECTION ( 'NONE',  ( -1.000000000000000000, -0.000000000000000000, -0.000000000000000000 ) ) ;
#150 = APPROVAL_PERSON_ORGANIZATION ( #66, #108, #10 ) ;
#151 = APPROVAL_DATE_TIME ( #106, #11 ) ;
#152 = CC_DESIGN_PERSON_AND_ORGANIZATION_ASSIGNMENT ( #83, #171, ( #117 ) ) ;
#153 = COORDINATED_UNIVERSAL_TIME_OFFSET ( 8, 0, .AHEAD. ) ;
#154 = MECHANICAL_CONTEXT ( 'NONE', #44, 'mechanical' ) ;
#155 = PERSON_AND_ORGANIZATION ( #68, #101 ) ;
#156 = CC_DESIGN_PERSON_AND_ORGANIZATION_ASSIGNMENT ( #132, #21, ( #62 ) ) ;
#157 = DATE_TIME_ROLE ( 'creation_date' ) ;
#158 = APPROVAL_DATE_TIME ( #46, #108 ) ;
#159 = EDGE_CURVE ( 'NONE', #79, #32, #140, .T. ) ;
#160 = EDGE_LOOP ( 'NONE', ( #1, #127, #131, #114 ) ) ;
#161 = DIRECTION ( 'NONE',  ( -1.000000000000000000, 0.000000000000000000, -0.000000000000000000 ) ) ;
#162 = ORIENTED_EDGE ( 'NONE', *, *, #70, .T. ) ;
#163 = FACE_OUTER_BOUND ( 'NONE', #25, .T. ) ;
#164 = DIRECTION ( 'NONE',  ( -1.000000000000000000, -0.000000000000000000, -0.000000000000000000 ) ) ;
#165 = APPROVAL ( #20, 'UNSPECIFIED' ) ;
#166 = CC_DESIGN_APPROVAL ( #11, ( #64 ) ) ;
#167 = CARTESIAN_POINT ( 'NONE',  ( -1.614212418857619014, 0.000000000000000000, 0.000000000000000000 ) ) ;
#168 = EDGE_LOOP ( 'NONE', ( #14, #162 ) ) ;
#169 = DATE_AND_TIME ( #9, #12 ) ;
#170 = DIRECTION ( 'NONE',  ( 1.000000000000000000, 0.000000000000000000, 0.000000000000000000 ) ) ;
#171 = PERSON_AND_ORGANIZATION_ROLE ( 'design_supplier' ) ;
#172 = PRODUCT_DEFINITION_SHAPE ( 'NONE', 'NONE',  #64 ) ;
#173 = CC_DESIGN_PERSON_AND_ORGANIZATION_ASSIGNMENT ( #155, #50, ( #117 ) ) ;
#174 = APPROVAL_PERSON_ORGANIZATION ( #48, #165, #67 ) ;
#175 = PERSON_AND_ORGANIZATION_ROLE ( 'creator' ) ;
ENDSEC;
END-ISO-10303-21;
